Most Helpful Video:

Album: Away From the World

 












Tuning: Standard

E-A-D-G-B-E

Capo: 2nd Fret


Difficulty: ***

Advanced


Additional Tabs:



Helpful Videos:

Verse 

e|----2--  ----2---------------3-----------------------------------------2--- 
B|----3--  ----3----(0)--(0)---0-----------2-----------2-----(0)--(0)----3---
G|----2--  ----2----(0)--(0)---0-----------2-----------2-----(0)--(0)----2---
D|--0-0--  --0-0---------------0---2-/4----2--4/5-4----2---------------0-0---
A|-------  --------4----5------2---------0-0---------0-0----4----5-----------
E|-------  ------------------3-3---------------------------------------------

Bridge 

e|-------------------------2-------- 
B|-------------------2-----3-----3--
G|----4----(4)-------2-----2-----2--
D|----4-----2--------2---0-0-----X--
A|--2-2-----2------0-0---------4-4--
E|--------0-0---(3)-----------------

e|-----------------------------2-- 
B|------------------2----------3--
G|----4----(4)------2----------2--
D|----4-----2-------2--------0-0--
A|--2-2-----2-----0-0------4------
E|--------0-0---3-----------------

Studio Version:

Belly Full