Studio Version:

Most Helpful Video:

Album: Away From the World

 

Belly Belly Nice













Tuning: Standard

E-A-D-G-B-E


Difficulty: ***

Advanced


Additional Tabs:



Helpful Videos:

Intro/Main riff (Tim plays throughout song):

E|---------------------------------------------------
B|---------------------------------------------------
G|--------5------------7--5--------5-----------------
D|-----7--5-7----7----(7)-5-----7--5-7-----5---5/7---
A|---------------------------------------------------
E|---5---------5---5----------5----------3---3-------

During most verses Dave just strums over these notes in random patterns:

E|--------------   ---------------
B|--------------   ---------------
G|--------------   ---------------
D|---------7----   ---------5-----
A|--------------   ---------------
E|---5--5----5--   --3--3------3--


Chorus:

E|-------------------   Played   -----------------
B|-------------------  sometimes -----------------
G|---7---7---6---7---   to end   --7-6--7-6--7-6--
D|---0-------0---0---   chorus   -----------------
A|-------5-----------   after    -----------------
E|---7-------5---7--- (X)chord:  --5-5--5-5--5-5--
            (X)

Bridge:

E|------------------------    --------------------    ----------
B|------------------------    --------------------    ----------
G|------------------------    --------------------    ---------- Then Back to
D|------------------------ x1 -------------------- x2 -7-7--7-7- x1 Main Riff
A|----------------------7-    --10--10--8--8--7---    ----------  
E|---2--3--5--7--9--10----    --8---7---6--8--8---    -5-5--5-5-

End:
E|---------------------------------
B|---------------------------------
G|---------------------------------
D|---------------------------------
A|-----------------------------10--
E|--2--3--5--7--9--10--12--14--8---