Most Helpful Video:

 

Beach Ball













Tuning: Standard

E-A-D-G-B-E

Capo: 7th Fret

Comment: Dave plays in Raised-B tuning


Difficulty: ***

Advanced


Additional Tabs:



Helpful Videos:

Verse
e|---0-------(0)---0----|
B|---0-------(3)---1----|
G|---0--(0)---0----0----|
D|---2---5----4----2----|
A|---2---7----5----3----|
E|---0------------------|


Pre-Chorus part 1 ("Hello moon")
e|---0-------3---|
B|---0-------3---|
G|---0-------0---|
D|---2-------0---|
A|---2-------2---|
E|---0---2---3---|


Pre-Chorus part 2 (“Ring The Bell”)
e|---0-----3-----0-----0---|
B|---0-----0-----1-----1---|
G|---0-----0-----2-----0---|
D|---2-----0-----2-----2---|
A|---2-----2-----0--2--3---|
E|---0--2--3---------------|


Chorus (listen to song for proper timing)
e|---------------------------------------------|
B|---3----3----3--3----3--3----3---3----3--2---|
G|---2----2----0--0----0--0----0---0----0--0---|
D|---0----x----x--x----x--x----x---x----2--2---|
A|--------4----2--3----2--1----x---x----0--0---|
E|-----------------------------1---3-----------|


Post-chorus/Jam
e|---0-----0-----3-----3---|
B|---0-----1-----3-----3---|
G|---0-----0-----0-----0---|
D|---2-----2-----0-----0---|
A|---2-----3-----x-----x---|
E|---0-----------3-----2---|


e|---0-----0-----0----3---3---|
B|---0-----1-----3----3---3---|
G|---0-----0-----0----0---0---|
D|---2-----2-----2----0---0---|
A|---2-----3-----0----x---x---|
E|---0----------------3---2---|