Be Yourself

Most Helpful Video:

Tuning: Standard

E-A-D-G-B-E


Difficulty: **

Intermediate


Additional Tabs:



Helpful Videos:

Intro/Tims part throughout
E|--------------------------------------
B|----------15--------------------15----
G|------13--------------------13--------
D|--14------------12--12--14------------
A|--------------------------------------
E|--------------------------------------


Verse (Dave)

E|-------   
B|-------   
G|---9---  
D|---x--- 

A|---7---   
E|-------  


Chorus

E|-----3-------------3----------
B|--1--0--3-------1--3--5-------
G|--0--0--x-------0--4--5--9----
D|--2--0--4-------2--5--5--x----
A|--3--2--5--4----3--5--3--7----
E|-----3-----5-------3----------


After Chorus

E|--------
B|---13---
G|---12---
D|---11---
A|---12---
E|--------


Before going back into verse

E|---------------------------------
B|---------------------------------
G|---------------------------------
D|---------------------------------
A|--0-0-3-0-0-4-0-0-5-0-0-6-0-0-7--
E|---------------------------------


Jam

E|-----------   
B|-----------  
G|--9--7--9-- 
D|--x--x--x-- Repeat
A|--7--5--7--   
E|-----------