Studio Version:

Most Useful Video:

Album: UTTAD

 

Ants Marching













Tuning: Standard

E-A-D-G-B-E


Difficulty: ***

Advanced


Additional Tabs:

> Ants Intro

> Tim's Parts


Useful Videos:

Funk Intro
​The slide part is during Leroi's solo
E----------------------------  -------------
B----------------------------  -------------
G----------------------------  ---10\11-----
D--12--10--9--7--5--3--2--0--  ---11\12-----
A----------------------------  ---x-\x------
E----------------------------  ---9-\10-----
   1   1   1  1  1  1  1


​Verse

E-2--x-x-x-----------------3--x-x-x-----------------
B-3--x-x-x-----------------0--x-x-x-----------------
G-2--x-x-x-----------------0--x-x-x-----------------
D-0--x-x-x------4-----4-0--0--x-x-x------5-----5\7--
A-----------4\5---4\5------2---------4\5---4\5------
E--------------------------3------------------------
            (2) 1 (2) 1              (1) 2 (1) (2)
Chorus
E----2--3--------
B----3--0-----2--
G-4--2--0--4--2--
D-4--0--0--4--2--
A-2-----2--2-----
E-------3--------

"All the little Ants...
​"E------------
B------------
G-4---4---4-- <---4
D-x---0---x--
A-2---x---2--
E-3---2---0-- <---1on2

​During the violin Jam he just plays D-chord then G-chord

​After violin Jam he plays
E---------2------2--3--------
B---------3------3--0-----2--
G-5---4---2---4--2--0--4--2--
D-x---x---0---4--0--0--4--2--
A-3---2-------2-----2--2-----
E-5---3-------------3--------

Dave ends on a D-chord and sometimes switches to this D-chord(7/25/99)
​E----
B-3--
G-x--
D-4--
A-5--
E----