Studio Version:

Most Useful Video:

Album: UTTAD

 

Ants Marching - Tim's Parts













Tuning: Standard

E-A-D-G-B-E


Difficulty: Tim n/a



Additional Tabs:

> Main Ants Tabs

> Ants Intro


Useful Videos:

> Dave Solo Farm Aid '05

Intro/Verse

The fingerings are correct. Do what feels natural on the strumming. These four measures can be used to lead into verses.

E:-2-x-------------3-xx-------------5xx55x5x55x5-7xx77x7x9--5xx55x5x55x5-7xx77x7x14--
B:-3-x-------------3-xx-------------7xx77x7x77x7-8xx88x8x10-7xx77x7x77x7-8xx88x8x15--
G:-2-x-------------0-xx-------------7xx77x7x77x7-7xx77x7x9--7xx77x7x77x7-7xx77x7x14--
D:---x----4----4---0-xx----5----5----------------------------------------------------
A:---x-4/5--4/5-0--2-xx-4/5--4/5-0---------------------------------------------------
E:---x-------------3-xx--------------------------------------------------------------


Tim solo #1

after first verse

-8888888-7----------7777777-------------10-7-8----7------------
-----------10-8-10--8888888-10-8--8-10---------10---8-10-8-7-8-
--------------------7777777------------------------------------
---------------------------------------------------------------
---------------------------------------------------------------
---------------------------------------------------------------


solo #2
the dueling banjos part
-7-8-10-7-8----7----14-15-17-14-15-14----14-12~-7-8-10-7-8-10-7---7-
------------10---8~-------------------15------------------------8-7-
--------------------------------------------------------------------
--------------------------------------------------------------------
--------------------------------------------------------------------
--------------------------------------------------------------------

Tim solo #3

-5555555555-88888-77777-10101010101010-10101010101010-5-5-
-7777777777-88888-88888-10101010101010-12121212121212-7-8-
------------------------------------------------------7-7-
----------------------------------------------------------
----------------------------------------------------------
----------------------------------------------------------

Tim last solo

it's played with a slide
Now for the last solo.  You must have a slide to play it like this.
---10--10--10--10--10---15--15--15--15--15---22--22--22--22--22-
-10--10--10--10--10---15--15--15--15--15---22--22--22--22--22---
----------------------------------------------------------------
----------------------------------------------------------------
----------------------------------------------------------------
----------------------------------------------------------------

---15--15--15--15--15----10--10--10--10--10---19--19--17--17--15--15-
-15--15--15--15--15----10--10--10--10--10---19--19--17--17--15--15---
---------------------------------------------------------------------
---------------------------------------------------------------------
---------------------------------------------------------------------
---------------------------------------------------------------------

---15--15--15--15----22--22--22--22--22--24--26--28--30--32-------
-15--15--15--15----22--22--22--22--22--23--25--27--29--31---etc..-
------------------------------------------------------------------
------------------------------------------------------------------
------------------------------------------------------------------
------------------------------------------------------------------

-17-17-17-17-17-17--10-10-10-10-10-10-17-17-17-17-17-17-17-17-
--------------------------------------------------------------
--------------------------------------------------------------
--------------------------------------------------------------
--------------------------------------------------------------
--------------------------------------------------------------

-22-22-22-22-22-22-22-22-22-22-22-22-22-27-27-27-27-27-27-29-29-29-
-------------------------------------------------------------------
-------------------------------------------------------------------
-------------------------------------------------------------------
-------------------------------------------------------------------
-------------------------------------------------------------------

-29-29-29-29-29-29-29-29-29-29-29-29-29-29-29-29-29-29-29-29-29-
----------------------------------------------------------------
----------------------------------------------------------------
----------------------------------------------------------------
----------------------------------------------------------------
----------------------------------------------------------------

-29-29-29-28-27-26-25-24-23-22-21-20-19-18-10-10-10-10-10-10-
-------------------------------------------------------------
-------------------------------------------------------------
-------------------------------------------------------------
-------------------------------------------------------------
-------------------------------------------------------------

-17-17-17-17-15-14-15-14-12-14-12-10-12-10-10-10-10-10-10-10-
-------------------------------------------------------------
-------------------------------------------------------------
-------------------------------------------------------------
-------------------------------------------------------------
-------------------------------------------------------------

-5-5-5-5-5-2-2-2-2-2-2-5-5-5-5-5-5-10-10-10-10-10-10-10-12-15-15-
-----------------------------------------------------------------
-----------------------------------------------------------------
-----------------------------------------------------------------
-----------------------------------------------------------------
-----------------------------------------------------------------

-15-15-15-15-15-17-17-17-17-17-22-22-22-22-22-22-22-22-22-22-22-22-
-------------------------------------------------------------------
-------------------------------------------------------------------
-------------------------------------------------------------------
-------------------------------------------------------------------
-------------------------------------------------------------------