Studio Version:

Album: Some Devil

 

An' Another Thing













Tuning: Standard

E-A-D-G-B-E


Comment: This song is the same as Little Thing 


Difficulty: ***

Advanced


Additional Tabs:



Useful Videos:


Intro/Verse

When Dave picks...he just picks those notes

E-----------------
B-----------------
G---11---------4--
D---10---------5--
A---9----------6--
E-8-8--------7-7--
  1          4


Chorus

E---------------------------------
B---------------------------------
G-11------11------11------7----7-- <---4(3on7)
D-9-------9-------x-------x----x-- <---2
A-10------10------9-------x----x-- <---3(2on9)
E-0-------8-------10------7----6-- <---1on 8&6(3on10, 2on7)


Ending

E:-------------------------
B:-------------------------
G:----7-----7-----7-----7--
D:-------------------------
A:-------------------------
E:-7-----7-----6-----6-----
   2  3  2  3  1  3  1  3