Most Helpful Video:

Originally by: Bob Dylan

 

All Along the Watchtower













Tuning: Standard

E-A-D-G-B-E


Difficulty: *

Beginner


Additional Tabs:


Helpful Videos:

Intro

There are many variations to this

E:------------------------------------------
B:------------------------------------------
G:------------------------------------------
D:----------------------------x-------------
A:----------------------------x-------------
E:-5--5\---0h3--3--0--3--0h1--x--0h1---0h3--
   2  (2)  (2)  2     2  (1)     (1)   (2)


Beginning of Slow Part

There are many variations to this

E:-------------------------
B:-------------------------
G:-------------------------
D:----------------x--------
A:----------------x--------
E:-5--5--3--3--1--x--1--3--
   2  2  2  2  1     1  2


Intro Variation

This is played 2x during the intro. For reference, one time is "Said the Joker to the thief"

E:---------------------------------------
B:---------------------------------------
G:---------------------------------------
D:----------------x--3~~--3/5--5~~--5/7--
A:----------------x--3~~--3/5--5~~--5/7--
E:-5--5--3--3--1--x--0h1--1----0h3--3----
   2  2  2  2  1     (1)       (1)


Middle/End of Slow part and fast part of song

E:-0-----3-----1-----1---3--
B:-1-----0-----1-----1---0--
G:-2-----0-----2-----2---0--
D:-2-----0-----3-----3---0--
A:-0-----2-----3-----3---2--
E:-------3-----1-----1---3--


Old Jam

E:-0-----3-----1-------------
B:-1-----0-----1------1---3--
G:-2-----0-----2------x---x--
D:-2-----0-----3------2---4--
A:-0-----2-----3------3---5--
E:-------3-----1/------------


Newer Jam

E:-------------------------------------------
B:-------------------------------------------
G:-------------------------------------------
D:-7--7--x--x--5--5--x--x--3--3--x--x--3--5--
A:-7--7--x--x--5--5--x--x--3--3--x--x--3--5--
E:-5--5--x--x--3--3--x--x--1--1--x--x--1--3--