Tuning: Standard

E-A-D-G-B-E


Difficulty: Easy


CAPO: 1st Fret


Additional Tabs:



Helpful Videos:













 

Again and Again

Studio Version:

Most Helpful Video:

Dave does not usually play guitar on this song live. Tim usually covers the guitar portion live, and adds variation into the chords below. 


Capo: 1st Fret

Intro
    Dm  C
e|--1-------
B|--3---1---
G|--2---0---
D|--0---2---
A|------3---
E|----------


Verse
    Dm  C        Bb A
e|--1------    --------
B|--3---1--    --3--2--
G|--2---0--    --3--2--
D|--0---2-- x2 --3--2-- x2
A|------3--    --1--0--
E|---------    --------

End Verse into Chorus (“Breath/My Queen”)
    D  
e|--2--
B|--3--
G|--2--
D|--0--
A|-----
E|-----

Chorus

e|--2-2---0---3---2---
B|--3-3-3-3---3-3-3---
G|--2-2-0-0---0-0-2---
D|--0-x-0-2---0-2-0--- x2
A|----4-2-0---2-0-----
E|------------3------- 

Post-Chorus
    A  G
e|-----3--
B|--2--3--
G|--2--0--
D|--2--0-- x3
A|--0--2--
E|-----3--