Most Helpful Video:

Originally by: Procul Harum

 

A Whiter Shade of Pale













Tuning: Standard

E-A-D-G-B-E

Capo: 8th Fret


Difficulty: **

Intermediate


Additional Tabs:



Helpful Videos:

Intro / Post-Chorus 
|---------------------------1-----------------------3---------------------|
|---1---0---1-------1-------1---1-0-1-----------0---0---------------------|
|---0---0---2-------0-------2---2---------------0---0---0---0---0---------|
|---2---2---2-0-----0-----0-3---2-----3-2-3-3---0---0---0---2---0-----0---|
|---3---2---0---3-2-3-2-3-------0-----5-5-5-5-3-3---2---2---2---2-2-3-----|
|-------0-----------3---3---------------------------3---1---0---3---------|

Verse 
|----------------0-----------0---1-------3---------------------|
|---1--------0---1---1---1---1---3---1---0-------0-------------|
|---0--------0---2---0---2---2---2---2---0---0---0---0---------| 
|---2(p0h2)--2---2---2---3---2---0---3---0---0---2---0-----0---|
|---3--------2---0---3---3---0-------3---2---2---2---2-2-3-----|
|------------0-------3-------------------3---1---0---3---------|       

                                       ^ 
Chorus ("And so it was", begins at ^)
|-------------------0-----------0---1-------3---------------------------| 
|-----------1---1---1---1---1---1---3---1---0-------0-------1-------1---| 
|---0-0-0---0---0---2---0---2---2---2---2---0---0---0---0---0---2---0---|
|---0-0-0---2--(0)--2---2---3---2---0---3---0---0---2---0---2---3---2---| 
|---2-2-2---3---2---0---3---3---0-------3---2---2---2---2---3---3---3---|
|---3-3-3---------------3-------------------3---1---0---3---------------|