Most Helpful Video:

 

A Dream So Real













Tuning: Standard

E-A-D-G-B-E


Difficulty: **

Intermediate


Additional Tabs:



Helpful Videos:

Mostly played on piano live


Verse:
E: --3--3--3--1--1--1--3--3--
B: --4--4--4--1--1--0--4--4--
G: --5--3--5--2--1--0--5--5--
D: --5--5--5--1--1--0--5--5--
A: --3-----3--3--3--2--3--3--
E: --3-----3--1--1--3--3--3--


Chorus:
E: --3--3--3--4--
B: --4--3--4--4--
G: --3--3--5--5--
D: --5--3--5--6--
A: -----5--3--6--
E: -----3--3--4--


Chorus Outro: Keep Me Going/Get Me By (Whatever he says)
E: --3--4--3--
B: --4--4--4--
G: --3--5--3--
D: --5--6--5--
A: -----6-----
E: -----4-----