Studio Version:

Most Helpful Video:

Album: Crash

 

#41













Tuning: Standard

E-A-D-G-B-E


Difficulty: ***

Advanced


Additional Tabs:


Helpful Videos:

> Dave and Tim '10

​> Dave Solo '02


Intro

E:--------------------------------
B:---------------8---3--3----3----
G:---5-----7-----4---x--0h4--x----
D:---2-----4-----5---4--x----0h4--
A:---3-----5---7-7---5--5----5----
E:-5-5---7-7----------------------
                        (2)  (2)


Verse

E:------------------------
B:---8-----8-----8-----8-- <---4
G:---7-----7-----7-----7-- <---3
D:------------------------
A:------------7-----5-----
E:-5----7-----------------
   1    2     2     1


Chorus

E:-------------
B:-------------
G:-4---2----9--
D:-x---x----x--
A:-2---x----7--
E:-3---2---\8--
           (2)


Jam

Basically just the verse

E:----------------------
B:------------(8)----3--
G:-5-----7-----4-----x--
D:-2-----4-----5-----4--
A:-3-----5-----7-----5--
E:-5-----7--------------


Jam Variation

E:------------------------
B:-13-----15----(8)----3--
G:-9------11-----4-----x--
D:-10-----12-----5-----4--
A:-12-----14-----7-----5--
E:------------------------


Outro

In the outro he sometimes jumps quickly between the last two chords instead of just playing the last one

See finger chart for fingering on this one

E:-10----7---8-7---5----5--
B:-8-----8---8-8---8----7--
G:-7-----7---7-7---7----7--
D:-------------------------
A:-------------------------
E:-------------------------