Tuning: Standard

E-A-D-G-B-E


Difficulty: Tim n/a


Additional Tabs:


Helpful Videos:

> Dave and Tim '10

​> Dave Solo '02


Studio Version:

Most Helpful Video:

Album: Crash

 

#41 - Tim's Fills













Verse:

----5------7------7----(5)---

----5------7------8-----7----

----5------7------7-----7----

----5------7------9-----7----

----7------9---7--7---5-5----

--5-5----7-7--(0)------------ 


Where Dave starts yelling before the chorus:

--0---0---0---0-------0--0--0--0-------------

--1---3---8---7-------1--3--0--3-------------

--0---0---0---7--OR---0--2--0--2-------------

--2---4---9---7-------2--4--0--0-------------

--0---2---7---5-------0--2--2----------------

----------------------------0----------------


Tim will sometimes play Boyd's part.        

--7p5-5-3--3-------------    

-------------------------    

-------------------------    

-------------------------    

-------------------------    

-------------------------


Chorus:

----3-----2------3----0------------------------

----3-----3------1----1---------8---7----------

----0-----2------0----0------------------------

----0-----0------2----2-----//5---4------------

----2----------3-3--3-3------------------------

--3-3---2-2------------------------------------


Tims fill at the end starts on the upbeat of beat 2, and is played as eighth notes, with the upbeat of beat 4 being a rest.