Tuning: Standard

E-A-D-G-B-E


Difficulty: n/a



Additional Tabs:


Helpful Videos:

> Dave and Tim '10

​> Dave Solo '02


Studio Version:

Most Helpful Video:

Album: Crash

 

#41 - Sojourn of Arjuna













Bela Fleck banjo part for guitar


Whole Song

E:-----------------------------------------
B:----------------7--8---------------------
G:----9--9--7--9--------9-----7--7------7--
D:-/9----------------------9---------9-----
A:-----------------------------------------
E:-----------------------------------------


E:--------------------------------7------------------
B:----------------------7--8--10---------------------
G:----7--9--------7--9---------------9--10/9---7--9--
D:-9--------9--9-------------------------------------
A:---------------------------------------------------
E:---------------------------------------------------


E:------------------------------------------------------------------------
B:---------------------------------------------------------------7--8--7--
G:-------9--7-----------------------------------------------7--9----------
D:-9--9--------9--7------7--9--10--9--7----------9--9--7--9---------------
A:-------------------10------------------10---7---------------------------
E:------------------------------------------------------------------------


E:----------------7--7--8--10--8--7---------------------
B:-----------------------------------10--8--7-----------
G:-9--7--------9-------------------------------9--7-----
D:-------9-------------------------------------------9--
A:------------------------------------------------------
E:------------------------------------------------------ 


E:-------------------------------7------------------
B:----------------------7--8--10--------------------
G:----7--9--------7--9---------------9--10/9--7--9--
D:-9--------9--9------------------------------------
A:--------------------------------------------------
E:--------------------------------------------------