Tuning: Standard

E-A-D-G-B-E


Difficulty: Tim n/a



Additional Tabs:


Helpful Videos:

> Dave and Tim '10

​> Dave Solo '02


Studio Version:

Most Helpful Video:

Album: Crash

 

#41 - Tim's Live at Luther Solo













Whole Solo

-3-----------------|-7---5--------------------|
-----3-------------|-------8--7---8-5---------|
---------2---------|------------------7-------|
-------------4---5-|-----------------------7--|
-------------------|--------------------------|
-------------------|--------------------------|

  3:41
-7--8--7---5-5----7----5------------|
--------------------8----7---7-5----|
---------------------------------7--|
------------------------------------|
------------------------------------|
------------------------------------|

  3:47
------------------------------------------|
-0--0-3--0--0-5--0--0-7--0--0-3---5--7-8--|
------------------------------------------|
------------------------------------------|
------------------------------------------|
------------------------------------------|

  3:52
---------------------------------------|
-10-12-11^(h)-11^(h)-10-11^(h)-11^(h)--|
---------------------------------------|
---------------------------------------|
---------------------------------------|
---------------------------------------|

  3:54
-----------------------------------------------------------------|
-12--13^(w)-13^(w)---12--13^(w)-13^(w)---13^w--w^(15)-12--10-10--|
-----------------------------------------------------------------|
-----------------------------------------------------------------|
-----------------------------------------------------------------|
-----------------------------------------------------------------|

 3:58                                                
-----------5----5----5--5-5-5-7--5-5-5--7--5--|
-7--7-7-7--7--7-7-7---------------------------|
-5--5-5-5--5--5-5-5--7--7-7-7-7--7-7-7--7--7--|
----------------------------------------------|
----------------------------------------------|
----------------------------------------------|

  4:03 
------------------------------------8--8---------|
-8--10-12--10--8-10-10-8---8-8--10--------10--8--|
------------------------------------9--9---------|
-9--10-12--10--9-10-10-9---9-9--10--------10--9--|
-------------------------------------------------|
-------------------------------------------------|

  4:07
------------------------------------------------------10-----|
--------------12-12-10-----------------------------10----12--|
---------9-12-------------9-7-----------------11-9-----------|
-5--7/10----------------------10-9-7h9-7/9-12----------------|
-------------------------------------------------------------|
-------------------------------------------------------------|

  4:10
------------14-14---12----12-----------------------------------|
-12--10/15-------------15------15-12-15---12----12---10----10--|
---------------------------------------------14---------12-----|
---------------------------------------------------------------|
---------------------------------------------------------------|
---------------------------------------------------------------|

  4:13 
-------------------------------------------------------------------------|
-11^(h)-11^(h)-10---11^(h)-11^(h)-10---11^(h)-11^(h)-10----11^(h)-11^(h)-|
------------------12-----------------12-----------------12---------------|
-------------------------------------------------------------------------|
-------------------------------------------------------------------------|
-------------------------------------------------------------------------|

  4:17                                                       
-----------------------------------------------------|
-10----11^(h)-11^(h)-10----11^(h)-10----11^(h)-10----|
----12------------------12-----------12-----------12-|
-----------------------------------------------------|
-----------------------------------------------------|
-----------------------------------------------------|

  4:19                            4:20
-------10-12-10-------------------------------------------|
-10/12----------12-10-------------------------------------|
----------------------12-9----------------------9--12-12--|
---------------------------12-9---------------------------|
----------------------------------12--10-10--10-----------|
----------------------------------------------------------|

  4:22
-10--12--14--15-----------------14--15---------------|
------------------------12--15----------13-15--10-12-|
----------------14-----------------------------------|
-----------------------------------------------------|
-----------------------------------------------------|
-----------------------------------------------------|

  4:31                       4:35
-----------------------------0--0----------|
-8---0-7--0-5/3--5--------3--3--3-3-3--3---|
--------------------------2--4--4-4-4--4---|
-------------------------------------------|
-------------------------------------------|
-------------------------------------------|
 

  4:38
----------10-10-10-10---10/12-12-12-12-12---12/15-15--15-15--|
-8--8-8-8--8--8--8--8----8/10-10-10-10-10---10/13-13--13-13--|
-9--9-9-9--9--9--9--9---------12-12-12-12---------14--14-14--|
-------------------------------------------------------------|
-------------------------------------------------------------|
-------------------------------------------------------------|
  4:45
---------------x-3-3---------------5--3-----------------------|
---------------x-3-3----------3------------------3------------|
---------------------------4--------------------0---0---------|
-2--x--4---------------2-----------------------4-------4------|
-------5-----------------------------------5--------------5---|
-------------0------------------------------------------------|

  4:51
------------------------------------------------------------|
----------------------------------------------5--7-7--7--5--|
-5-5--5--5------------------------------------7--7-7--7--7--|
-5-5--5--5-----7--7---9--9-----9--9---9--9------------------|
---------------7--7---7--7-----7--7---7--7------------------|
------------------------------------------------------------|

  5:00
-------------------------------------------------------------------------|
-----1-----------------1---0--------------------------------4-----4------|
---4--------------2-----------2---------------------------7-----7-----7--|
-2-------2------0----------------------5--5------5-----5-----------------|
------------------------------------7---------7--------------------------|
-------------------------------------------------------------------------|

  5:09                                                           5:20
-----------------------------------------------------------------|
-----------------------------------------------------------------|
-----------5--5---------7-------7---------------4------------4---|
----5------x--x------------------------------5-------------7-----|
-7-----7---7--7-----10-------10------------------------5---------|
---------------------------------------7-------------------------|