Tuning: Standard

E-A-D-G-B-E


Difficulty: ***

Advanced


Additional Tabs:



Helpful Videos:

Most Helpful Video:

 

#40













Intro
E:----------------------0------0--
B:-------1--------1-----1------1--
G:----------------------0------0--
D:----2--------0--------2------2--
A:-3--------2---------------------
E:-------------------1-------3----
   3  2  1  3     1  1       4


Verse
E:-----------------0------0--
B:----1---(1)------1------1--
G:----x------------0------0--
D:----2---(x)------2------2--
A:-3-------2-----------------
E:--------------1-------3----
   3       2    1       4


Chorus
E:----------------------3--      E:-2--------3---------------
B:----1---(1)-----3-----3--      B:-3--------3----2----------
G:----x-----------2-----0--      G:-2--------0----2----4-----
D:----2---(x)-----x-----0-- then D:-0--------0----2----4----- x2
A:-3-------2------x-----2--      A:----------2----0----2-----
E:--------------2-2---3-3--      E:------2-3-3------------4--
   3       2    1     2                  1 2              3


"Always..."
E:--------
B:--------
G:-----5--
D:-4---5-- <---3
A:-3---3-- <---1
E:--------