Tuning: Standard

E-A-D-G-B-E


Difficulty: ****

Pro


Additional Tabs:



Helpful Videos:

> DMB '13

Studio Version:

Most Helpful Video:

Album: UTTAD

 

#34













Verse

E:----------------------------------------------------------------
B:----------------------------------------------------------------
G:--------------------11-----------------7--6---------------------
D:-------9---------9---------11/7-----7--------4--7---------------
A:----7-----(5/)7---------9--------5-----------------5---7--7--9--
E:-5--------------------------------------------------------------
   1  2  4    (1)  2  4   1  (3)   1  3  4  2  1  4  1   1  1  1


Breakdown

E:---------------------------------      E:----------------------
B:---------------------------------      B:----------------------
G:-------2----------2--------------  or  G:---2-----2------------
D:----0----------0-----------------      D:---0-----0------------
A:------------------------7--7--9--      A:---x-----x---7--7--9--
E:-2----------3--------------------      E:-2-2---3-3------------
   2     3    3     2     1  1  1           2     3     1  1  1

Jam Intro

E:-----
B:-----
G:-----
D:-7\--
A:-5\--
E:-----


Jam

2 in parenthesis is sometimes played

E:---------------------------------------------------------------
B:---------------------------------------------------------------
G:------------------0--4---------------------0--4---4--3---------
D:-6/7---6---4---4--0--2----6/7---6---4---4--0--2---------4------ <---4
A:-4/5---4---0---2----------4/5---4---0---2---------------------- <---1
E:-----------------------------------------------------------2/--
                                                    4  2  3  1


Run to End

Played instead of riff @ end of Jam

E:------------------------------------------------------
B:------------------------------------------------------
G:----4--3-----6-----4----------------------------------
D:-2--------4-----2--------7-----5--------10--------10--
A:----------------------5-----3--------8---------8------
E:----------------------------------6---------6---------
   1  4  2  1  4  1  4  1  4  1  4  1  2  4   1  2  4


Ending

Last time around 2nd 6-8-10 is not played

E:--------------------------------------------------------------------------
B:--------------------------------------------------------------------------
G:--------------------11-----------------7--6-------------------------------
D:-------9---------9---------11/7-----7--------4--7-----------10--------10--
A:----7-----(5/)7---------9--------5-----------------5-----8---------8------
E:-5----------------------------------------------------6---------6---------
   1  2  4    (1)  2  4   1  (3)   1  3  4  2  1  4  1  1  2  4   1  2  4