Tuning: Standard

E-A-D-G-B-E


Difficulty: **

Intermediate


Additional Tabs:



Helpful Videos:

Intro (Dave)
-------------------------------------------------|
-------------------------------------------------|
-4p2-0-2------4p2-2h4----4p2-0-0h2----2h4-2-2h4--|
-------------------------------------------------|
-------------------------------------------------|
----------0--------------------------------------|


Verse (just a general idea, play with
        the picking pattern)
------------------------------------|
------------------------------------|
---------2-------------2------------|
-2-------2------2------2------2-----|etc
-2-------0------2------0------2-----|
-0--------------0-------------0-----|


("I'm so lost..."/"I'm so sick...") part
-3----2----------|
-0----3----2-----|
-0----2----2-----|
-0----0----2-----|
-2---------0-----|
-3---------------|


Break/Bridge
------------------------|
------------------------|
-7---6---5---4---3------| x 2
-x---x---x---x---x------|
-5---4---3---2---1------|
-7---5---5---3---3------|

Most Helpful Video:

 

#27